ISO-10303-21;
HEADER;
FILE_DESCRIPTION(('CATIA V5 STEP Exchange'),'2;1');

FILE_NAME('\\\\stisrv.epfl.ch\\sti-sgm\\sgm-ens\\soubiell\\Enseignement\\ME-101-106 - Construction M\X2\00E9\X0\canique I\\1. Supports de cours\\SW2\\Fichiers sources et illustrations\\PIECE B.stp','2023-10-16T12:18:02+00:00',('none'),('none'),'CATIA Unofficial Packaging Version SP3','CATIA V5 STEP AP203','none');

FILE_SCHEMA(('CONFIG_CONTROL_DESIGN'));

ENDSEC;
DATA;
#5=PRODUCT('PIECE B','','',(#2)) ;
#1=APPLICATION_CONTEXT('configuration controlled 3D design of mechanical parts and assemblies') ;
#14=PRODUCT_DEFINITION('',' ',#6,#3) ;
#16=SECURITY_CLASSIFICATION(' ',' ',#15) ;
#15=SECURITY_CLASSIFICATION_LEVEL('unclassified') ;
#46=CARTESIAN_POINT(' ',(0.,0.,0.)) ;
#51=CARTESIAN_POINT('Axis2P3D Location',(0.,-350.,0.)) ;
#56=CARTESIAN_POINT('Line Origine',(0.,-350.,200.)) ;
#60=CARTESIAN_POINT('Vertex',(0.,-350.,0.)) ;
#62=CARTESIAN_POINT('Vertex',(0.,-350.,400.)) ;
#65=CARTESIAN_POINT('Line Origine',(175.,-350.,0.)) ;
#69=CARTESIAN_POINT('Vertex',(350.,-350.,0.)) ;
#72=CARTESIAN_POINT('Line Origine',(350.,-350.,200.)) ;
#76=CARTESIAN_POINT('Vertex',(350.,-350.,400.)) ;
#79=CARTESIAN_POINT('Line Origine',(175.,-350.,400.)) ;
#91=CARTESIAN_POINT('Axis2P3D Location',(200.,-200.,0.)) ;
#96=CARTESIAN_POINT('Line Origine',(200.,-200.,200.)) ;
#100=CARTESIAN_POINT('Vertex',(200.,-200.,0.)) ;
#102=CARTESIAN_POINT('Vertex',(200.,-200.,400.)) ;
#105=CARTESIAN_POINT('Line Origine',(175.,-200.,0.)) ;
#109=CARTESIAN_POINT('Vertex',(150.,-200.,0.)) ;
#112=CARTESIAN_POINT('Line Origine',(150.,-200.,200.)) ;
#116=CARTESIAN_POINT('Vertex',(150.,-200.,400.)) ;
#119=CARTESIAN_POINT('Line Origine',(175.,-200.,400.)) ;
#131=CARTESIAN_POINT('Axis2P3D Location',(0.,0.,0.)) ;
#136=CARTESIAN_POINT('Line Origine',(50.,0.,0.)) ;
#140=CARTESIAN_POINT('Vertex',(100.,1.13686837722E-013,0.)) ;
#142=CARTESIAN_POINT('Vertex',(0.,0.,0.)) ;
#145=CARTESIAN_POINT('Line Origine',(125.,-100.,0.)) ;
#150=CARTESIAN_POINT('Line Origine',(225.,-100.,0.)) ;
#154=CARTESIAN_POINT('Vertex',(250.,0.,0.)) ;
#157=CARTESIAN_POINT('Line Origine',(300.,0.,0.)) ;
#161=CARTESIAN_POINT('Vertex',(350.,0.,0.)) ;
#164=CARTESIAN_POINT('Line Origine',(350.,-175.,0.)) ;
#169=CARTESIAN_POINT('Line Origine',(0.,-175.,0.)) ;
#185=CARTESIAN_POINT('Axis2P3D Location',(0.,0.,400.)) ;
#190=CARTESIAN_POINT('Line Origine',(287.5,-100.,400.)) ;
#194=CARTESIAN_POINT('Vertex',(225.,-100.,400.)) ;
#196=CARTESIAN_POINT('Vertex',(350.,-100.,400.)) ;
#199=CARTESIAN_POINT('Line Origine',(212.5,-150.,400.)) ;
#204=CARTESIAN_POINT('Line Origine',(137.5,-150.,400.)) ;
#208=CARTESIAN_POINT('Vertex',(125.,-100.,400.)) ;
#211=CARTESIAN_POINT('Line Origine',(62.5,-100.,400.)) ;
#215=CARTESIAN_POINT('Vertex',(0.,-100.,400.)) ;
#218=CARTESIAN_POINT('Line Origine',(0.,-225.,400.)) ;
#223=CARTESIAN_POINT('Line Origine',(350.,-225.,400.)) ;
#239=CARTESIAN_POINT('Axis2P3D Location',(350.,0.,0.)) ;
#244=CARTESIAN_POINT('Line Origine',(100.,0.,50.)) ;
#248=CARTESIAN_POINT('Vertex',(100.,1.13686837722E-013,100.)) ;
#251=CARTESIAN_POINT('Line Origine',(0.,0.,50.)) ;
#255=CARTESIAN_POINT('Vertex',(0.,0.,100.)) ;
#258=CARTESIAN_POINT('Line Origine',(50.,0.,100.)) ;
#270=CARTESIAN_POINT('Axis2P3D Location',(100.,1.13686837722E-013,0.)) ;
#275=CARTESIAN_POINT('Line Origine',(112.5,-50.,100.)) ;
#279=CARTESIAN_POINT('Vertex',(125.,-100.,100.)) ;
#282=CARTESIAN_POINT('Line Origine',(125.,-100.,250.)) ;
#296=CARTESIAN_POINT('Axis2P3D Location',(200.,-200.,0.)) ;
#301=CARTESIAN_POINT('Line Origine',(225.,-100.,250.)) ;
#305=CARTESIAN_POINT('Vertex',(225.,-100.,100.)) ;
#308=CARTESIAN_POINT('Line Origine',(237.5,-50.,100.)) ;
#312=CARTESIAN_POINT('Vertex',(250.,0.,100.)) ;
#315=CARTESIAN_POINT('Line Origine',(250.,1.98951966013E-013,50.)) ;
#329=CARTESIAN_POINT('Line Origine',(350.,0.,50.)) ;
#333=CARTESIAN_POINT('Vertex',(350.,0.,100.)) ;
#336=CARTESIAN_POINT('Line Origine',(300.,0.,100.)) ;
#348=CARTESIAN_POINT('Axis2P3D Location',(350.,0.,0.)) ;
#353=CARTESIAN_POINT('Line Origine',(350.,-50.,100.)) ;
#357=CARTESIAN_POINT('Vertex',(350.,-100.,100.)) ;
#360=CARTESIAN_POINT('Line Origine',(350.,-100.,250.)) ;
#374=CARTESIAN_POINT('Axis2P3D Location',(0.,-350.,0.)) ;
#379=CARTESIAN_POINT('Line Origine',(0.,-100.,250.)) ;
#383=CARTESIAN_POINT('Vertex',(0.,-100.,100.)) ;
#386=CARTESIAN_POINT('Line Origine',(0.,-50.,100.)) ;
#400=CARTESIAN_POINT('Axis2P3D Location',(0.,0.,100.)) ;
#405=CARTESIAN_POINT('Line Origine',(62.5,-100.,100.)) ;
#417=CARTESIAN_POINT('Axis2P3D Location',(350.,-100.,400.)) ;
#429=CARTESIAN_POINT('Line Origine',(287.5,-100.,100.)) ;
#52=DIRECTION('Axis2P3D Direction',(0.,-1.,0.)) ;
#53=DIRECTION('Axis2P3D XDirection',(1.,0.,0.)) ;
#57=DIRECTION('Vector Direction',(0.,0.,1.)) ;
#66=DIRECTION('Vector Direction',(1.,0.,0.)) ;
#73=DIRECTION('Vector Direction',(0.,0.,1.)) ;
#80=DIRECTION('Vector Direction',(1.,0.,0.)) ;
#92=DIRECTION('Axis2P3D Direction',(0.,1.,-0.)) ;
#93=DIRECTION('Axis2P3D XDirection',(-1.,0.,0.)) ;
#97=DIRECTION('Vector Direction',(0.,0.,1.)) ;
#106=DIRECTION('Vector Direction',(-1.,0.,0.)) ;
#113=DIRECTION('Vector Direction',(0.,0.,1.)) ;
#120=DIRECTION('Vector Direction',(-1.,0.,0.)) ;
#132=DIRECTION('Axis2P3D Direction',(0.,0.,1.)) ;
#133=DIRECTION('Axis2P3D XDirection',(1.,0.,0.)) ;
#137=DIRECTION('Vector Direction',(-1.,0.,0.)) ;
#146=DIRECTION('Vector Direction',(0.242535625036,-0.970142500145,0.)) ;
#151=DIRECTION('Vector Direction',(0.242535625036,0.970142500145,0.)) ;
#158=DIRECTION('Vector Direction',(-1.,0.,0.)) ;
#165=DIRECTION('Vector Direction',(0.,-1.,0.)) ;
#170=DIRECTION('Vector Direction',(0.,1.,0.)) ;
#186=DIRECTION('Axis2P3D Direction',(0.,0.,1.)) ;
#187=DIRECTION('Axis2P3D XDirection',(1.,0.,0.)) ;
#191=DIRECTION('Vector Direction',(-1.,0.,0.)) ;
#200=DIRECTION('Vector Direction',(0.242535625036,0.970142500145,0.)) ;
#205=DIRECTION('Vector Direction',(0.242535625036,-0.970142500145,0.)) ;
#212=DIRECTION('Vector Direction',(-1.,0.,0.)) ;
#219=DIRECTION('Vector Direction',(0.,1.,0.)) ;
#224=DIRECTION('Vector Direction',(0.,-1.,0.)) ;
#240=DIRECTION('Axis2P3D Direction',(0.,1.,-0.)) ;
#241=DIRECTION('Axis2P3D XDirection',(-1.,0.,0.)) ;
#245=DIRECTION('Vector Direction',(0.,0.,1.)) ;
#252=DIRECTION('Vector Direction',(0.,0.,1.)) ;
#259=DIRECTION('Vector Direction',(1.,0.,0.)) ;
#271=DIRECTION('Axis2P3D Direction',(-0.970142500145,-0.242535625036,0.)) ;
#272=DIRECTION('Axis2P3D XDirection',(0.242535625036,-0.970142500145,0.)) ;
#276=DIRECTION('Vector Direction',(0.242535625036,-0.970142500145,0.)) ;
#283=DIRECTION('Vector Direction',(4.73695157173E-017,-1.89478062869E-016,-1.)) ;
#297=DIRECTION('Axis2P3D Direction',(0.970142500145,-0.242535625036,0.)) ;
#298=DIRECTION('Axis2P3D XDirection',(0.242535625036,0.970142500145,0.)) ;
#302=DIRECTION('Vector Direction',(0.,0.,-1.)) ;
#309=DIRECTION('Vector Direction',(-0.242535625036,-0.970142500145,0.)) ;
#316=DIRECTION('Vector Direction',(0.,0.,1.)) ;
#330=DIRECTION('Vector Direction',(0.,0.,1.)) ;
#337=DIRECTION('Vector Direction',(1.,0.,0.)) ;
#349=DIRECTION('Axis2P3D Direction',(-1.,0.,0.)) ;
#350=DIRECTION('Axis2P3D XDirection',(0.,-1.,0.)) ;
#354=DIRECTION('Vector Direction',(0.,1.,0.)) ;
#361=DIRECTION('Vector Direction',(0.,0.,-1.)) ;
#375=DIRECTION('Axis2P3D Direction',(1.,0.,0.)) ;
#376=DIRECTION('Axis2P3D XDirection',(0.,1.,0.)) ;
#380=DIRECTION('Vector Direction',(0.,0.,-1.)) ;
#387=DIRECTION('Vector Direction',(0.,-1.,0.)) ;
#401=DIRECTION('Axis2P3D Direction',(0.,0.,1.)) ;
#402=DIRECTION('Axis2P3D XDirection',(1.,0.,0.)) ;
#406=DIRECTION('Vector Direction',(-1.,0.,0.)) ;
#418=DIRECTION('Axis2P3D Direction',(-0.,-1.,-0.)) ;
#419=DIRECTION('Axis2P3D XDirection',(-1.,0.,0.)) ;
#430=DIRECTION('Vector Direction',(-1.,0.,0.)) ;
#47=AXIS2_PLACEMENT_3D(' ',#46,$,$) ;
#54=AXIS2_PLACEMENT_3D('Plane Axis2P3D',#51,#52,#53) ;
#94=AXIS2_PLACEMENT_3D('Plane Axis2P3D',#91,#92,#93) ;
#134=AXIS2_PLACEMENT_3D('Plane Axis2P3D',#131,#132,#133) ;
#188=AXIS2_PLACEMENT_3D('Plane Axis2P3D',#185,#186,#187) ;
#242=AXIS2_PLACEMENT_3D('Plane Axis2P3D',#239,#240,#241) ;
#273=AXIS2_PLACEMENT_3D('Plane Axis2P3D',#270,#271,#272) ;
#299=AXIS2_PLACEMENT_3D('Plane Axis2P3D',#296,#297,#298) ;
#351=AXIS2_PLACEMENT_3D('Plane Axis2P3D',#348,#349,#350) ;
#377=AXIS2_PLACEMENT_3D('Plane Axis2P3D',#374,#375,#376) ;
#403=AXIS2_PLACEMENT_3D('Plane Axis2P3D',#400,#401,#402) ;
#420=AXIS2_PLACEMENT_3D('Plane Axis2P3D',#417,#418,#419) ;
#40=PRODUCT_DEFINITION_SHAPE(' ',' ',#14) ;
#31=APPROVAL_PERSON_ORGANIZATION(#25,#21,#19) ;
#25=PERSON_AND_ORGANIZATION(#22,#23) ;
#22=PERSON(' ',' ',' ',$,$,$) ;
#23=ORGANIZATION(' ',' ',' ') ;
#21=APPROVAL(#20,' ') ;
#20=APPROVAL_STATUS('not_yet_approved') ;
#19=APPROVAL_ROLE('APPROVER') ;
#13=DATE_AND_TIME(#11,#12) ;
#12=LOCAL_TIME(14,18,2.,#10) ;
#10=COORDINATED_UNIVERSAL_TIME_OFFSET(0,0,.AHEAD.) ;
#85=ORIENTED_EDGE('',*,*,#64,.F.) ;
#86=ORIENTED_EDGE('',*,*,#71,.T.) ;
#87=ORIENTED_EDGE('',*,*,#78,.T.) ;
#88=ORIENTED_EDGE('',*,*,#83,.F.) ;
#125=ORIENTED_EDGE('',*,*,#104,.F.) ;
#126=ORIENTED_EDGE('',*,*,#111,.T.) ;
#127=ORIENTED_EDGE('',*,*,#118,.T.) ;
#128=ORIENTED_EDGE('',*,*,#123,.F.) ;
#175=ORIENTED_EDGE('',*,*,#144,.F.) ;
#176=ORIENTED_EDGE('',*,*,#149,.F.) ;
#177=ORIENTED_EDGE('',*,*,#111,.F.) ;
#178=ORIENTED_EDGE('',*,*,#156,.F.) ;
#179=ORIENTED_EDGE('',*,*,#163,.F.) ;
#180=ORIENTED_EDGE('',*,*,#168,.F.) ;
#181=ORIENTED_EDGE('',*,*,#71,.F.) ;
#182=ORIENTED_EDGE('',*,*,#173,.F.) ;
#229=ORIENTED_EDGE('',*,*,#198,.F.) ;
#230=ORIENTED_EDGE('',*,*,#203,.T.) ;
#231=ORIENTED_EDGE('',*,*,#123,.T.) ;
#232=ORIENTED_EDGE('',*,*,#210,.T.) ;
#233=ORIENTED_EDGE('',*,*,#217,.F.) ;
#234=ORIENTED_EDGE('',*,*,#222,.T.) ;
#235=ORIENTED_EDGE('',*,*,#83,.T.) ;
#236=ORIENTED_EDGE('',*,*,#227,.T.) ;
#264=ORIENTED_EDGE('',*,*,#250,.F.) ;
#265=ORIENTED_EDGE('',*,*,#144,.T.) ;
#266=ORIENTED_EDGE('',*,*,#257,.T.) ;
#267=ORIENTED_EDGE('',*,*,#262,.F.) ;
#288=ORIENTED_EDGE('',*,*,#281,.T.) ;
#289=ORIENTED_EDGE('',*,*,#286,.F.) ;
#290=ORIENTED_EDGE('',*,*,#210,.F.) ;
#291=ORIENTED_EDGE('',*,*,#118,.F.) ;
#292=ORIENTED_EDGE('',*,*,#149,.T.) ;
#293=ORIENTED_EDGE('',*,*,#250,.T.) ;
#321=ORIENTED_EDGE('',*,*,#307,.T.) ;
#322=ORIENTED_EDGE('',*,*,#314,.F.) ;
#323=ORIENTED_EDGE('',*,*,#319,.F.) ;
#324=ORIENTED_EDGE('',*,*,#156,.T.) ;
#325=ORIENTED_EDGE('',*,*,#104,.T.) ;
#326=ORIENTED_EDGE('',*,*,#203,.F.) ;
#342=ORIENTED_EDGE('',*,*,#335,.F.) ;
#343=ORIENTED_EDGE('',*,*,#163,.T.) ;
#344=ORIENTED_EDGE('',*,*,#319,.T.) ;
#345=ORIENTED_EDGE('',*,*,#340,.F.) ;
#366=ORIENTED_EDGE('',*,*,#359,.F.) ;
#367=ORIENTED_EDGE('',*,*,#364,.F.) ;
#368=ORIENTED_EDGE('',*,*,#227,.F.) ;
#369=ORIENTED_EDGE('',*,*,#78,.F.) ;
#370=ORIENTED_EDGE('',*,*,#168,.T.) ;
#371=ORIENTED_EDGE('',*,*,#335,.T.) ;
#392=ORIENTED_EDGE('',*,*,#385,.T.) ;
#393=ORIENTED_EDGE('',*,*,#390,.F.) ;
#394=ORIENTED_EDGE('',*,*,#257,.F.) ;
#395=ORIENTED_EDGE('',*,*,#173,.T.) ;
#396=ORIENTED_EDGE('',*,*,#64,.T.) ;
#397=ORIENTED_EDGE('',*,*,#222,.F.) ;
#411=ORIENTED_EDGE('',*,*,#262,.T.) ;
#412=ORIENTED_EDGE('',*,*,#390,.T.) ;
#413=ORIENTED_EDGE('',*,*,#409,.T.) ;
#414=ORIENTED_EDGE('',*,*,#281,.F.) ;
#423=ORIENTED_EDGE('',*,*,#286,.T.) ;
#424=ORIENTED_EDGE('',*,*,#409,.F.) ;
#425=ORIENTED_EDGE('',*,*,#385,.F.) ;
#426=ORIENTED_EDGE('',*,*,#217,.T.) ;
#435=ORIENTED_EDGE('',*,*,#433,.T.) ;
#436=ORIENTED_EDGE('',*,*,#359,.T.) ;
#437=ORIENTED_EDGE('',*,*,#340,.T.) ;
#438=ORIENTED_EDGE('',*,*,#314,.T.) ;
#442=ORIENTED_EDGE('',*,*,#307,.F.) ;
#443=ORIENTED_EDGE('',*,*,#198,.T.) ;
#444=ORIENTED_EDGE('',*,*,#364,.T.) ;
#445=ORIENTED_EDGE('',*,*,#433,.F.) ;
#50=CLOSED_SHELL('Closed Shell',(#90,#130,#184,#238,#269,#295,#328,#347,#373,#399,#416,#428,#440,#447)) ;
#58=VECTOR('Line Direction',#57,1.) ;
#67=VECTOR('Line Direction',#66,1.) ;
#74=VECTOR('Line Direction',#73,1.) ;
#81=VECTOR('Line Direction',#80,1.) ;
#98=VECTOR('Line Direction',#97,1.) ;
#107=VECTOR('Line Direction',#106,1.) ;
#114=VECTOR('Line Direction',#113,1.) ;
#121=VECTOR('Line Direction',#120,1.) ;
#138=VECTOR('Line Direction',#137,1.) ;
#147=VECTOR('Line Direction',#146,1.) ;
#152=VECTOR('Line Direction',#151,1.) ;
#159=VECTOR('Line Direction',#158,1.) ;
#166=VECTOR('Line Direction',#165,1.) ;
#171=VECTOR('Line Direction',#170,1.) ;
#192=VECTOR('Line Direction',#191,1.) ;
#201=VECTOR('Line Direction',#200,1.) ;
#206=VECTOR('Line Direction',#205,1.) ;
#213=VECTOR('Line Direction',#212,1.) ;
#220=VECTOR('Line Direction',#219,1.) ;
#225=VECTOR('Line Direction',#224,1.) ;
#246=VECTOR('Line Direction',#245,1.) ;
#253=VECTOR('Line Direction',#252,1.) ;
#260=VECTOR('Line Direction',#259,1.) ;
#277=VECTOR('Line Direction',#276,1.) ;
#284=VECTOR('Line Direction',#283,1.) ;
#303=VECTOR('Line Direction',#302,1.) ;
#310=VECTOR('Line Direction',#309,1.) ;
#317=VECTOR('Line Direction',#316,1.) ;
#331=VECTOR('Line Direction',#330,1.) ;
#338=VECTOR('Line Direction',#337,1.) ;
#355=VECTOR('Line Direction',#354,1.) ;
#362=VECTOR('Line Direction',#361,1.) ;
#381=VECTOR('Line Direction',#380,1.) ;
#388=VECTOR('Line Direction',#387,1.) ;
#407=VECTOR('Line Direction',#406,1.) ;
#431=VECTOR('Line Direction',#430,1.) ;
#449=ADVANCED_BREP_SHAPE_REPRESENTATION('NONE',(#448),#45) ;
#48=SHAPE_REPRESENTATION(' ',(#47),#45) ;
#90=ADVANCED_FACE('Corps principal',(#89),#55,.T.) ;
#130=ADVANCED_FACE('Corps principal',(#129),#95,.T.) ;
#184=ADVANCED_FACE('Corps principal',(#183),#135,.F.) ;
#238=ADVANCED_FACE('Corps principal',(#237),#189,.T.) ;
#269=ADVANCED_FACE('Corps principal',(#268),#243,.T.) ;
#295=ADVANCED_FACE('Corps principal',(#294),#274,.F.) ;
#328=ADVANCED_FACE('Corps principal',(#327),#300,.F.) ;
#347=ADVANCED_FACE('Corps principal',(#346),#243,.T.) ;
#373=ADVANCED_FACE('Corps principal',(#372),#352,.F.) ;
#399=ADVANCED_FACE('Corps principal',(#398),#378,.F.) ;
#416=ADVANCED_FACE('Corps principal',(#415),#404,.T.) ;
#428=ADVANCED_FACE('Corps principal',(#427),#421,.F.) ;
#440=ADVANCED_FACE('Corps principal',(#439),#404,.T.) ;
#447=ADVANCED_FACE('Corps principal',(#446),#421,.F.) ;
#4=APPLICATION_PROTOCOL_DEFINITION('international standard','config_control_design',1994,#1) ;
#32=APPROVAL_DATE_TIME(#13,#21) ;
#448=MANIFOLD_SOLID_BREP('Corps principal',#50) ;
#11=CALENDAR_DATE(2023,16,10) ;
#30=CC_DESIGN_APPROVAL(#21,(#16,#6,#14)) ;
#18=CC_DESIGN_DATE_AND_TIME_ASSIGNMENT(#13,#17,(#16)) ;
#29=CC_DESIGN_DATE_AND_TIME_ASSIGNMENT(#13,#28,(#14)) ;
#17=DATE_TIME_ROLE('classification_date') ;
#28=DATE_TIME_ROLE('creation_date') ;
#27=CC_DESIGN_PERSON_AND_ORGANIZATION_ASSIGNMENT(#25,#26,(#16)) ;
#33=CC_DESIGN_PERSON_AND_ORGANIZATION_ASSIGNMENT(#25,#34,(#6)) ;
#35=CC_DESIGN_PERSON_AND_ORGANIZATION_ASSIGNMENT(#25,#36,(#6,#14)) ;
#37=CC_DESIGN_PERSON_AND_ORGANIZATION_ASSIGNMENT(#25,#38,(#5)) ;
#26=PERSON_AND_ORGANIZATION_ROLE('classification_officer') ;
#34=PERSON_AND_ORGANIZATION_ROLE('design_supplier') ;
#36=PERSON_AND_ORGANIZATION_ROLE('creator') ;
#38=PERSON_AND_ORGANIZATION_ROLE('design_owner') ;
#39=CC_DESIGN_SECURITY_CLASSIFICATION(#16,(#6)) ;
#450=SHAPE_REPRESENTATION_RELATIONSHIP(' ',' ',#48,#449) ;
#3=DESIGN_CONTEXT(' ',#1,'design') ;
#64=EDGE_CURVE('',#61,#63,#59,.T.) ;
#71=EDGE_CURVE('',#61,#70,#68,.T.) ;
#78=EDGE_CURVE('',#70,#77,#75,.T.) ;
#83=EDGE_CURVE('',#63,#77,#82,.T.) ;
#104=EDGE_CURVE('',#101,#103,#99,.T.) ;
#111=EDGE_CURVE('',#101,#110,#108,.T.) ;
#118=EDGE_CURVE('',#110,#117,#115,.T.) ;
#123=EDGE_CURVE('',#103,#117,#122,.T.) ;
#144=EDGE_CURVE('',#141,#143,#139,.T.) ;
#149=EDGE_CURVE('',#110,#141,#148,.F.) ;
#156=EDGE_CURVE('',#155,#101,#153,.F.) ;
#163=EDGE_CURVE('',#162,#155,#160,.T.) ;
#168=EDGE_CURVE('',#70,#162,#167,.F.) ;
#173=EDGE_CURVE('',#143,#61,#172,.F.) ;
#198=EDGE_CURVE('',#195,#197,#193,.F.) ;
#203=EDGE_CURVE('',#195,#103,#202,.F.) ;
#210=EDGE_CURVE('',#117,#209,#207,.F.) ;
#217=EDGE_CURVE('',#216,#209,#214,.F.) ;
#222=EDGE_CURVE('',#216,#63,#221,.F.) ;
#227=EDGE_CURVE('',#77,#197,#226,.F.) ;
#250=EDGE_CURVE('',#141,#249,#247,.T.) ;
#257=EDGE_CURVE('',#143,#256,#254,.T.) ;
#262=EDGE_CURVE('',#249,#256,#261,.F.) ;
#281=EDGE_CURVE('',#249,#280,#278,.T.) ;
#286=EDGE_CURVE('',#209,#280,#285,.T.) ;
#307=EDGE_CURVE('',#195,#306,#304,.T.) ;
#314=EDGE_CURVE('',#313,#306,#311,.T.) ;
#319=EDGE_CURVE('',#155,#313,#318,.T.) ;
#335=EDGE_CURVE('',#162,#334,#332,.T.) ;
#340=EDGE_CURVE('',#334,#313,#339,.F.) ;
#359=EDGE_CURVE('',#358,#334,#356,.T.) ;
#364=EDGE_CURVE('',#197,#358,#363,.T.) ;
#385=EDGE_CURVE('',#216,#384,#382,.T.) ;
#390=EDGE_CURVE('',#256,#384,#389,.T.) ;
#409=EDGE_CURVE('',#384,#280,#408,.F.) ;
#433=EDGE_CURVE('',#306,#358,#432,.F.) ;
#84=EDGE_LOOP('',(#85,#86,#87,#88)) ;
#124=EDGE_LOOP('',(#125,#126,#127,#128)) ;
#174=EDGE_LOOP('',(#175,#176,#177,#178,#179,#180,#181,#182)) ;
#228=EDGE_LOOP('',(#229,#230,#231,#232,#233,#234,#235,#236)) ;
#263=EDGE_LOOP('',(#264,#265,#266,#267)) ;
#287=EDGE_LOOP('',(#288,#289,#290,#291,#292,#293)) ;
#320=EDGE_LOOP('',(#321,#322,#323,#324,#325,#326)) ;
#341=EDGE_LOOP('',(#342,#343,#344,#345)) ;
#365=EDGE_LOOP('',(#366,#367,#368,#369,#370,#371)) ;
#391=EDGE_LOOP('',(#392,#393,#394,#395,#396,#397)) ;
#410=EDGE_LOOP('',(#411,#412,#413,#414)) ;
#422=EDGE_LOOP('',(#423,#424,#425,#426)) ;
#434=EDGE_LOOP('',(#435,#436,#437,#438)) ;
#441=EDGE_LOOP('',(#442,#443,#444,#445)) ;
#89=FACE_OUTER_BOUND('',#84,.T.) ;
#129=FACE_OUTER_BOUND('',#124,.T.) ;
#183=FACE_OUTER_BOUND('',#174,.T.) ;
#237=FACE_OUTER_BOUND('',#228,.T.) ;
#268=FACE_OUTER_BOUND('',#263,.T.) ;
#294=FACE_OUTER_BOUND('',#287,.T.) ;
#327=FACE_OUTER_BOUND('',#320,.T.) ;
#346=FACE_OUTER_BOUND('',#341,.T.) ;
#372=FACE_OUTER_BOUND('',#365,.T.) ;
#398=FACE_OUTER_BOUND('',#391,.T.) ;
#415=FACE_OUTER_BOUND('',#410,.T.) ;
#427=FACE_OUTER_BOUND('',#422,.T.) ;
#439=FACE_OUTER_BOUND('',#434,.T.) ;
#446=FACE_OUTER_BOUND('',#441,.T.) ;
#44=UNCERTAINTY_MEASURE_WITH_UNIT(LENGTH_MEASURE(0.005),#41,'distance_accuracy_value','CONFUSED CURVE UNCERTAINTY') ;
#59=LINE('Line',#56,#58) ;
#68=LINE('Line',#65,#67) ;
#75=LINE('Line',#72,#74) ;
#82=LINE('Line',#79,#81) ;
#99=LINE('Line',#96,#98) ;
#108=LINE('Line',#105,#107) ;
#115=LINE('Line',#112,#114) ;
#122=LINE('Line',#119,#121) ;
#139=LINE('Line',#136,#138) ;
#148=LINE('Line',#145,#147) ;
#153=LINE('Line',#150,#152) ;
#160=LINE('Line',#157,#159) ;
#167=LINE('Line',#164,#166) ;
#172=LINE('Line',#169,#171) ;
#193=LINE('Line',#190,#192) ;
#202=LINE('Line',#199,#201) ;
#207=LINE('Line',#204,#206) ;
#214=LINE('Line',#211,#213) ;
#221=LINE('Line',#218,#220) ;
#226=LINE('Line',#223,#225) ;
#247=LINE('Line',#244,#246) ;
#254=LINE('Line',#251,#253) ;
#261=LINE('Line',#258,#260) ;
#278=LINE('Line',#275,#277) ;
#285=LINE('Line',#282,#284) ;
#304=LINE('Line',#301,#303) ;
#311=LINE('Line',#308,#310) ;
#318=LINE('Line',#315,#317) ;
#332=LINE('Line',#329,#331) ;
#339=LINE('Line',#336,#338) ;
#356=LINE('Line',#353,#355) ;
#363=LINE('Line',#360,#362) ;
#382=LINE('Line',#379,#381) ;
#389=LINE('Line',#386,#388) ;
#408=LINE('Line',#405,#407) ;
#432=LINE('Line',#429,#431) ;
#2=MECHANICAL_CONTEXT(' ',#1,'mechanical') ;
#24=PERSONAL_ADDRESS(' ',' ',' ',' ',' ',' ',' ',' ',' ',' ',' ',' ',(#22),' ') ;
#55=PLANE('',#54) ;
#95=PLANE('',#94) ;
#135=PLANE('',#134) ;
#189=PLANE('',#188) ;
#243=PLANE('',#242) ;
#274=PLANE('',#273) ;
#300=PLANE('',#299) ;
#352=PLANE('',#351) ;
#378=PLANE('',#377) ;
#404=PLANE('',#403) ;
#421=PLANE('',#420) ;
#7=PRODUCT_CATEGORY('part',$) ;
#9=PRODUCT_CATEGORY_RELATIONSHIP(' ',' ',#7,#8) ;
#6=PRODUCT_DEFINITION_FORMATION_WITH_SPECIFIED_SOURCE('',' ',#5,.NOT_KNOWN.) ;
#8=PRODUCT_RELATED_PRODUCT_CATEGORY('detail',$,(#5)) ;
#49=SHAPE_DEFINITION_REPRESENTATION(#40,#48) ;
#61=VERTEX_POINT('',#60) ;
#63=VERTEX_POINT('',#62) ;
#70=VERTEX_POINT('',#69) ;
#77=VERTEX_POINT('',#76) ;
#101=VERTEX_POINT('',#100) ;
#103=VERTEX_POINT('',#102) ;
#110=VERTEX_POINT('',#109) ;
#117=VERTEX_POINT('',#116) ;
#141=VERTEX_POINT('',#140) ;
#143=VERTEX_POINT('',#142) ;
#155=VERTEX_POINT('',#154) ;
#162=VERTEX_POINT('',#161) ;
#195=VERTEX_POINT('',#194) ;
#197=VERTEX_POINT('',#196) ;
#209=VERTEX_POINT('',#208) ;
#216=VERTEX_POINT('',#215) ;
#249=VERTEX_POINT('',#248) ;
#256=VERTEX_POINT('',#255) ;
#280=VERTEX_POINT('',#279) ;
#306=VERTEX_POINT('',#305) ;
#313=VERTEX_POINT('',#312) ;
#334=VERTEX_POINT('',#333) ;
#358=VERTEX_POINT('',#357) ;
#384=VERTEX_POINT('',#383) ;
#41=(LENGTH_UNIT()NAMED_UNIT(*)SI_UNIT(.MILLI.,.METRE.)) ;
#42=(NAMED_UNIT(*)PLANE_ANGLE_UNIT()SI_UNIT($,.RADIAN.)) ;
#43=(NAMED_UNIT(*)SI_UNIT($,.STERADIAN.)SOLID_ANGLE_UNIT()) ;
#45=(GEOMETRIC_REPRESENTATION_CONTEXT(3)GLOBAL_UNCERTAINTY_ASSIGNED_CONTEXT((#44))GLOBAL_UNIT_ASSIGNED_CONTEXT((#41,#42,#43))REPRESENTATION_CONTEXT(' ',' ')) ;
ENDSEC;
END-ISO-10303-21;
